"AMMA WARUNE" SONG CHORDS

NANDA MALANI GUITAR CHORDS

AMMA WARUNE  - 
goodcould be betterworth learningaccurateexcellent
 Chord Quality 
Loading
Auto ScrollSlowMediumFastFaster
Transpose these guitar chords into a different key:
[Intro/Inter]
-------6|--------|-------6|--------
-----6--|-6---6--|-----6--|-6---6--
---8----|---8---8|---8----|---8---8
-8------|--------|-8------|--------
--------|--------|--------|--------
--------|--------|--------|--------

[Chorus]
--------------------------------------------
Ebm      C#   Ab
Ammawarune........ 
Bbm      Ebsus|-
Ammawarune
C#            Bbm       Ebsus|-|-|-
Samma sambudu ammawarune
C#     Ebm    Bbm       Ebm
Daruwange duk kandulu dakina daa
Ab                C#   Ab
Suralowa sita athapaa....
Bbm     C#       Ebsus|-|-|-
Ea Kandulali pisina....

[Verse 1]
--------------------------------------------
C#  Ab         C#     Ab
Ammawaru nathi daruwanne
C#    Ab     C#    Ab 
Sanka duk kaudo danne
        C#    Bbm Ebm 
Ea duka danna ammawaru mai
Bbm       Ebm      Bbm    Ebm
Yam mathu dinayaka buduwanne
Ab   C#       Bbm      Ebsus|-|-|- 
Sansare mathu buduwanne

[Verse 2]
--------------------------------------------
C#       Ab     C#        Ab
Senehasa wadida sithada bolanda wee
C#     Ab      C#     Ab
Lowama aadarei kiya sithei
    C#      Bbm       Ebm 
Mayawak wee ehi thani wuu daa
Bbm  Ebm      Bbm    Ebm
Amma pamanai langa inne
Ab   C#      Bbm       Ebsus|-|-|- 
Amma pamanai langa inne

One thought on “Amma Warune

Leave a Reply