"KANDULA ITHIN SAMAWEYAN" SONG CHORDS

KEERTHI PASQUEL GUITAR CHORDS

KANDULA ITHIN SAMAWEYAN  - 
goodcould be betterworth learningaccurateexcellent
 Chord Quality 
Loading
Auto ScrollSlowMediumFastFaster
Transpose these guitar chords into a different key:
[Interlude]
Guitar Part
----------------------------------------------------------------

    E                                           A
E|--------------------------------------------------------------
B|----------------9--9--9--9--10--9-----------------------------
G|--9--11--9--11---------------------11--9------9--9--9---------
D|------------------------------------------11-----------11--9--
A|--------------------------------------------------------------
E|--------------------------------------------------------------

    A            E                              B7
E|------------------------------------------------------------------
B|------------------------------------------------------------------
G|----------------9--9--9--9--9--9--9--9--9--9--11--11--11--11--11--
D|--9--11--9--11----------------------------------------------------
A|------------------------------------------------------------------
E|------------------------------------------------------------------

    B             E                             A
E|--------------------------------------------------------------
B|----------------9--9--9--9--10--9-----------------------------
G|--9--11--9--11---------------------11--9------9--9--9---------
D|------------------------------------------11-----------11--9--
A|--------------------------------------------------------------
E|--------------------------------------------------------------

                 B7                        E
E|---------------------------------------------------------------
B|---------------------------------------------------------------
G|----------------9--9--9--9--9--9--11--9--9--9--9--9--9--9--9--9
D|--9--11--9--11-------------------------------------------------
A|---------------------------------------------------------------
E|---------------------------------------------------------------
[Intro]
----------------------------- 
| E  | -  | A  | -  | 
| E  | -  | A  | -  |
| E  | -  | A  | -  |
| E  | -  | -  |    | 

[Chorus]
------------------------------ 
E
Kadula ethin sama weyan
             B
Api wen wamu ada hawasata
              A
mage gepalata a enawa
B           E
siri yahane thani rakinna. //

[Inter 1]
----------------------------- 
| E  | -  | A   | -  |
| E  | -  | A   | -  |
| E  | -  | A   | -  |
| E  | -  | B7  | -  |
| E  | -  | A   | -  |
| B  | -  | E   | -  | 

[Verse 2]
----------------------------- 
E           A
kalu walawa nagennepa
            E
gagata udin handawata
            B
mudun leeya yatin polawe
B7         E 
goma hedai aluth pitama
           A
kanda kapa handa paya
             E
sada ras yahanata wadinna
            B
sada aliyen age gathe
B7          E
pipi gomara mal dakinna

[Inter 2]
----------------------------- 
| E  | -  | A  | -  |
| E  | -  | A  | -  |
| E  | -  | A  | -  |
| E  | -  | A  | -  |
| E  | -  | E  |    |
[verse 2]
-------------------------------- 
E          A
mal dewate wathu sudu mal 
         E
pipewi a piligannata
            B
kopul thala omari seena
B7            E
mathu wei mal paradannata
            A
bilidu gena kiri suwadak
             E
gepale dorin hama enna
           B
eda de yan walakule 
B7            E
mage sihinaye mal pipenna

Keerthi Pasquel chords are property and copyright of thier owners. "Kandula Ithin Samaweyan" chords provided for educational purposes and personal use only.

Leave a Reply