"MAL MITAK THIYAN" SONG CHORDS

KASUN KALHARA GUITAR CHORDS

MAL MITAK THIYAN  - 
goodcould be betterworth learningaccurateexcellent
 Chord Quality 
Loading
Auto ScrollSlowMediumFastFaster
Transpose these guitar chords into a different key:
[Intro]
   Am                                    G
E|---------------------------------------------------
B|----------------------10---------------------------
G|--5--4-----4--5--7\9------9/7--7--5--5\7--4--5--7--
D|--------7------------------------------------------
A|---------------------------------------------------
E|---------------------------------------------------

    G        Am                          G        Am
E|---------------------------------------------------
B|----------------------10---------------------------
G|--5--4-----4--5--7\9------9/7--7--5--5\7--4--5-----
D|--------7---------------------------------------7--
A|---------------------------------------------------
E|---------------------------------------------------
[Intro]
------------------------------------------- 
[| Am  | --  | G   | --  |
 | Am  | --  | G   | Am  |]
 | F   | --  | Em  | C   |
 | Em  | --  | C   | Am  |
 | F   | --  | Em  | C   | 
 | Am  | --  | G   | Am  |

[Chorus]
---------------------------------
Am                    C
Mal mitak thiyanna... oba athe
Am         F   G      Em
Matakiya koinda mal wane
G                  Dm      G
Jeevithe visal...l nadi there
Am              F   Dm    G   Am
Thuru hisath malth obai...e mage

[Verse 1]
---------------------------------
Am        Dm                   G 
Soduru... kavi liyana hithkone...
     Am  F  Dm             G   Am
Tharuka...  wahina raththriye...
    Am     G     Dm     G
Gelawate welee... hama edi... 
F      Em
Nala reli... 
Dm     G   Am  F  G  Am
Obai...e mage

[Verse 2]
---------------------------------
Am             Dm              G
Thuru latha... pawa dukin wage...
       Am  F  Dm       G   Am     
Atha wana...  hoyanne oba kohe...
          G   Dm      G
Handewe wage... saumyavi...
F      Em
Nida inna... 
Dm     G   Am  F  G  Am
Mage...e hade

Leave a Reply