"SHEELA" SONG CHORDS

JAYASRI GUITAR CHORDS

SHEELA  - 
goodcould be betterworth learningaccurateexcellent
 Chord Quality 
Loading
Auto ScrollSlowMediumFastFaster
Transpose these guitar chords into a different key:
[Intro/Inter]
----------------------------------------------
  Am                     E
E|---------------------------
B|--3\5--3-------------------
G|----------5--5--4--2--2\4--
D|---------------------------
A|---------------------------
E|---------------------------

                         G
E|---------------7--8--8\10--
B|--------8--10--------------
G|--7--9---------------------
D|---------------------------
A|---------------------------
E|---------------------------
				

                    Am
E|--7--8h8p7-----7--8---
B|------------8--8--10--
G|----------------------
D|----------------------
A|----------------------
E|----------------------
				

Play twice above parts and then play 
the below 
   Am
E|-----------------
B|--8--6--5--------
G|-----------7--5--
D|-----------------
A|-----------------
E|-----------------
[Adlib]
----------------------------------------
Am     Em
Sheela me geethayen wath dana ganna 
G                E
mage hadawathe duka

[Intro]
----------------------------------------
[| Am | - | E | - |
 | G  | - | Am| - |] 

[Verse 1]
----------------------------------------
C                      Em
 Balu balu hamathanama sihinen wage 
C                 Em
 Sangaunu seyawan madese ade.....
F              Dm
 Sulange pawee   mage gee yawee...
F                E
 Asunoth enawado  sonduriye mage......

[Chorus]
----------------------------------------
            Am               Em
Ma hada seradila heii kohedo yanne mese 
      G                  E
Sitha ridawanna epa hada bandi adare 
     Am           Em
Thaniwila heii ma inne kese 
G     E      Am
Evido mage kumari....

[Inter 1]
----------------------------------------
[| Am | - | E | - |
 | G  | - | Am| - |]

[Verse 2]
----------------------------------------
C                   Em
 Lowawama nawathila nihandai wage
C                 Em
 Thanikama paluwa dawati hade
F                 Dm
 Durakathanayakin oba amathawee 
F                E
 Sithamin innemi thani lokaye

[Chorus]
----------------------------------------
            Am               Em
Ma hada seradila heii kohedo yanne mese 
      G                  E
Sitha ridawanna epa hada bandi adare 
     Am           Em
Thaniwila heii ma inne kese 
G     E      Am
Evido mage kumari....

[Adlib]
----------------------------------------
Dm
Thaniwunu yahanata enawita
Am
Thawamath obage suwanda dane mata 
Em
Sihinen obe ruwa dakagannawath 
Am
Waram labeda mata 
    Dm
Obe lassana as deke wenekeku 
          Am
Hata ladi wenna epa
E                         Am
Ewido ewdido ewido mage kumari..

[Inter 2]
----------------------------------------
| Am | - | E | - |
| G  | - | Am| - |
| -  | - |  E| - |
| G  | - |Am | - |

[Chorus]
----------------------------------------
            Am               Em
Ma hada seradila heii kohedo yanne mese 
      G                  E
Sitha ridawanna epa hada bandi adare 
     Am           Em
Thaniwila heii ma inne kese 
G     E      Am
Evido mage kumari....

[End]
--------------------------------------
Am                 Em
Sheela sheela heee sheela sheela ho.. 4x(repeat 4 times)
G     E       Am
Ewido  mage kumari...

Leave a Reply