"API SANASILLE" SONG CHORDS

WAYO GUITAR CHORDS

API SANASILLE  - 
goodcould be betterworth learningaccurateexcellent
 Chord Quality 
Loading
Auto ScrollSlowMediumFastFaster
Transpose these guitar chords into a different key:
[Intro]
----------------------------------------------------
PALM MUTED NOTES

E|--------------------------------------------------
B|--------------------------------------------------
G|--------------------------------------------------
D|--------------4-----------------------------------
A|--5-----5--7-----7--5-----------5-----4--4--7--4--
E|-----5-----------------7--7--7-----7--------------

E|-------------------------
B|-------------------------
G|-------------------------
D|--------------4-----------
A|--5-----5--7-----7--5-----
E|-----5-----------------7--



E|--------------------------
B|--------------------------
G|--------------------------
D|--5--5--5--5--7--7--7--7--
A|--------------------------
E|--------------------------
[Intro/Inter]
-------------------------------------------
|D  |Bm  |G  |A  | 
4x

[Verse 1]
-------------------------------------------
D     Bm     G       A         D
Ukule lamade inda unusuma lebu kaale

|Bm   |G   |A  |

D        Bm       G       A        D
Nelawili gee wala thaalen nalawunu kaale

Bm  G   A       D      Bm   G    A        D    
        Thamath ehemai,     mata amathaka na...
Bm  G   A       D      Bm   G    A       D
        Thamath ehemai,     kisi wenasak na..

|Bm  |G   |A  |
 
[Chorus]
-------------------------------------------
D     
Yan yan yan yan
Bm   G       A
     Api senasille
D             Bm  |G  |A  |
Yan yan yan yan
D
Yan yan yan yan
Bm   G       A 
     Api nalawille..
D            Bm  G  A
Yan yan yan yan

[Verse 2]
-------------------------------------------
D         Bm      G      A      D     
Duwa pena awidala sellam kala e kaale

|Bm   |G   |A  | 

D       Bm     G      A       D
Ala dola ganga wewula peenapu kaale
Bm   G   A        D  Bm   G    A        D  Bm  G  A
         Thaamath ehemai, mata amathaka na
        D  Bm   G    A       D  Bm  G  A  D
Thamath ehemai, kisi wenasak na

[Verse 3]
--------------------------------------------
D       Bm      G        A         D    
Akuru karannata guru gedarata giya kaale

|Bm   |G   |A  |

D          Bm      G       A      D
Ranchu gahila kawi sindu kiyapu e kaale
Bm  G  A       D  Bm  G    A        D  Bm  G  A
       Thamath ehemai mata amathaka na
        D  Bm  G    A       D  Bm  G  A  D
thamath ehemai kisi wenasak na

Leave a Reply