"NODAKA INNA BA" SONG CHORDS

RUWAN HETTIARACHCHI GUITAR CHORDS

NODAKA INNA BA  - 
goodcould be betterworth learningaccurateexcellent
(1 votes, average: 1.00 out of 5)
Loading
Auto ScrollSlowMediumFastFaster
Transpose these guitar chords into a different key:
[Intro]
----------------------------------------
|F#m  |-  |E   |-  |
|C#m  |-  |A   |-  | 
|F#m  |-  |Bm  |-  |
|A    |-  |E   |-  |
|F#m  | 
 
[Chorus]
----------------------------------------
F#m         A      E        F#m
nodeka inna ba matanam mage adree
F#m         A       E       F#m
nolaba inna ba thawanam obe adare
             D      E       Bm       F#m     
nositha inna ba matanam kisida lande
             A     E        F#m	
nowinda inna baa.... obe adare
F#m         A      E        Dmaj7   F#m
nodeka inna ba matanam mage adree....

[Inter]
----------------------------------------
|F#m  |-  |E  |-  |
|D    |-  |E  |-  |
|F#m  |-  |E  |-  |
|D    |-  |E  |-  |

[Verse 1]
----------------------------------------
D         A     D           A
pahadul katha     mathake wela
D         A      D            A
denuwan thema       piyaman kala
          F#m        E           C#m           
pera pa sina pawee giya ma haradama
          F#m         E             C#m   F#m
sihiwa enawa oba ki katha mulu ra pura.....
          A  E         F#m
mathake dara  hidimi sada
          A  E         F#m
mathake dara  hidimi sada


[Verse 2]
----------------------------------------
D         A    D          A
mihidum wala    saluwen wela
D          A       D         A
pathuman dara       rakimi sada
          F#m        E          C#m 
pera pa sina pooja kala adure tiya
          F#m       E             C#m   F#m
sagawa thaba me wedana yali enathura......
         A   E         F#m
diviye pura   hidimi bala
         A   E         F#m
diviye pura   hidimi bala
[Intro Tabs]
------------------------------------------

    F#m            E
E|--------5--4------------------------
B|--7--7--------7--5--5--7h7p5-----5--
G|------------------------------6-----
D|------------------------------------
A|------------------------------------
E|------------------------------------

    C#m            A
E|--------4--7-------------
B|--5--5--------5----------
G|-----------------6--4/6--
D|-------------------------
A|-------------------------
E|-------------------------

    F#m              Bm
E|--9--9--12--10--9--7--7h9p7--5/7--
B|----------------------------------
G|----------------------------------
D|----------------------------------
A|----------------------------------
E|----------------------------------

    A                        E
E|--5\4--4/5--5--5/7--7/9--9\4--
B|------------------------------
G|------------------------------
D|------------------------------
A|------------------------------
E|------------------------------

                    F#m
E|--4--4--5h4----------
B|-------------5--5/7--
G|---------------------
D|---------------------
A|---------------------
E|---------------------

Ruwan Hettiarachchi chords are property and copyright of thier owners. "Nodaka Inna Ba" chords provided for educational purposes and personal use only.

Leave a Reply