"DIGU DASA DUTUWAMA" SONG CHORDS

ROMESH AND LAKSHAN GUITAR CHORDS

DIGU DASA DUTUWAMA  - 
goodcould be betterworth learningaccurateexcellent
 Chord Quality 
Loading
Auto ScrollSlowMediumFastFaster
Transpose these guitar chords into a different key:
[Intro]
-----------------------------------------------------------------------
-------------------------------------------0--1--3—1p0-----------------
-----0—-2--2/4--0--0—-2--2/4--0--0--2---2------------------------------
---2-------------------------------------------------------------------
-----------------------------------------------------------------------
-----------------------------------------------------------------------


-----------------------------------------------------------------------
-------------------------------------------0--1--3—1p0--0--1--0--------
-----0—-2--2/4--0--0—-2--2/4--0--0--2---2------------------------0—2---
---2-------------------------------------------------------------------
-----------------------------------------------------------------------
-----------------------------------------------------------------------
[| Am  | Em  | F  | G  |]

[Chorus]
----------------------------------------------
Am        Em        F        G
Digu dasa dutuwama, hengenawa pera sema
Am        Em         F           G
Unnu heti mage gawa, oya hithata amathakada
C          G           C         G        (G/F#/F)
Binda dama mage sihine, aida oba hengenne
F          Em           Dm        G       Em  Am
Mata denna mage sihine, langa inna pera waage

[Verse 1]
----------------------------------------------
Am      Em         Dm       G     Em  Am
Ra diwa hitha pura, awilila me ginna
          Em          F        G
tharu pawa handanawa, obata na therenne
C           G            C       G
Hithata ida himi nethida ahanawa hitha maage
F          Em           Dm         G       Em  Am
Mata denna mage sihine, langa inna pera waage

[Verse 2]
----------------------------------------------
Am       Em       Dm           G        Em  Am
Pera eda hamuwela windunu heti mudu pahase
         Em       F           G
Penenawa dakinawa, nihanda ra dura ahase
C           G              C       G
Durama misa langa nethida, ahanawa nethu maage
F        Em        Dm        G      Em  Am     
Kawadada oba enne, nethuwada hamuwanne

Romesh and Lakshan chords are property and copyright of thier owners. "Digu Dasa Dutuwama" chords provided for educational purposes and personal use only.

Leave a Reply