Dilhani Duwani Chords

INDRANI PERERA GUITAR CHORDS

DILHANI DUWANI  - 
goodcould be betterworth learningaccurateexcellent Chord Quality 
Loading...
Auto ScrollSlowMediumFastFaster
Transpose these guitar chords into a different key:
[Intro Lead Guitar Part]
------------------------------------------------------------------------
    D                                                A

E|--------------------2--2------------2--2--3--3--2--------------------
B|--------3--3--5--5------3--3--5--5-----------------5--2-----2--3--5--
G|--2--2---------------------------------------------------2-----------
D|---------------------------------------------------------------------
A|---------------------------------------------------------------------
E|---------------------------------------------------------------------

                                              A7       D

E|--------------------------------------------2--2-----2--5--3--2------
B|--------2--2--3--3--5--5--2--2--3--3--5--5--------5--3--7--5--3------
G|--2--2---------------------------------------------------------------
D|---------------------------------------------------------------------
A|---------------------------------------------------------------------
E|---------------------------------------------------------------------

    D
E|---------------------------------------------------------------------
B|--------2--3--5--3---------------------------------------------------
G|--2--4---------------------------------------------------------------
D|---------------------------------------------------------------------
A|---------------------------------------------------------------------
E|---------------------------------------------------------------------
[Intro/Inter]
--------------------------------------------------
|D  |-  |-   |A  |
|-  |-  |A7  |D  |
|-  |

[Chorus]
---------------------------------
D    A      D
Dilhani duwani
             Em
Nnada nidiyanne
A
 Niwasata suratal alokaya deee
A7          D
Nada nidiyanne

[Verse 1]
---------------------------------
D
Daatha depa salamin aya karana
        (Bm)    Em
Suratal daka ganna
A
 Vasanava mata genadun diyaniya
        A7   D
Suratal dilhani

[Verse 2]
---------------------------------
D
Ran onchille ayava hovala
       (Bm)     Em
Padavannata situna
A
 Ran tatiye kiri pani purawala
                D
Gena ennata situna

[Verse 3]
---------------------------------
D
Ranvan tatu athi samanalain daka
      (Bm)      Em
Ayage detol pipuna
A
 Ranvan muhune lassana dakala
                D
Sipagannata situna

Indrani Perera chords are property and copyright of their owners. "Dilhani Duwani" chords provided for educational purposes and personal use only.

Sinhala song lyrics and guitar chords brought to you from Sri Lanka @ chords-lk.com.

Leave a Reply