"DESA PIYAGATH KALA" SONG CHORDS

Desa Piyagath Kala mp3 Download Desa Piyagath Kala aac/m4a Download Desa Piyagath Kala mp4 video Download

CLARENCE WIJEWARDENA GUITAR CHORDS

DESA PIYAGATH KALA  - 
goodcould be betterworth learningaccurateexcellent
(1 votes, average: 5.00 out of 5)
Loading
Auto ScrollSlowMediumFastFaster
Transpose these guitar chords into a different key:
[Chorus]
-------------------------------------------
D                       A
Desa piyagath kala mata mewenne obe ruwa
                        A7          D
Etha kadukaren ena nala genenne obe hada //
      G
Kumariye...
         A               G
Amathaka nowe... lassana ruwe...
          D
Sitha senasuwe //

[Verse 1]
-------------------------------------------
D                      G 
Athin atha weli werale thaniwunu mohothe
Em         C          A7           D
Etha nim walalle neth redawunu mohothe //
           F#m            G
Sitha kelambune... ei nomadene...
    A         C            A7         D
Ki deyakda arumayakda mata hithaganna nodi

[Chorus]
-------------------------------------------
D                       A
Desa piyagath kala mata mewenne obe ruwa
                        A7          D
Etha kadukaren ena nala genenne obe hada //
      G
Kumariye...
         A               G
Amathaka nowe... lassana ruwe...
          D
Sitha senasuwe //

[Verse 2]
-------------------------------------------
D                         G 
Ralin rala hepi pena keti visirenu dekala
Em         C            A7          D
Nim nowu sithe sathutin hasarel pipila //
          F#m           G
Mathakaya mage... awadi wune...
A          C           A7         D
E edaya me medaya mata hithaganna nodi

[Chorus]
-------------------------------------------
D                       A
Desa piyagath kala mata mewenne obe ruwa
                        A7          D
Etha kadukaren ena nala genenne obe hada //
      G
Kumariye...
         A               G
Amathaka nowe... lassana ruwe...
          D
Sitha senasuwe //

Intro Lead
          (The baseline) Played Two Times
e|---------------------------------------------------------------------------------|
B|---------------------------------------------------------------------------------|
G|---------------------------------------------------------------------------------|
D|---------------------------------------------------------------------------------|
A|----5--3--5-3--------3-----3-----3--5--------------------------------------------|
E|--5------------5--5-----5-----5--------------------------------------------------|
                                        | D | - | - | - | (Rhythm)
e|----------------------------------------------------------------------------------|
B|--10/-8-8--7---10/-8-8--7---------------------------------------------------------|
G|-----------------------------7/--5---5--4-----------------------------------------|
D|----------------------------------------------------------------------------------|
A|----------------------------------------------------------------------------------|
E|----------------------------------------------------------------------------------|

e|----------------3-3---7---5---------5--7--5--7---10--9------7----7--10--9----9--7--|
B|------------3-3--------------8--5-----------------------10----------------10------8|
G|--2/--4--4-------------------------------------------------------------------------|
D|-----------------------------------------------------------------------------------|
A|-----------------------------------------------------------------------------------|
E|-----------------------------------------------------------------------------------|

e|-----------------------------------------------------------------------------------|
B|-7-7-7-7-7-7-7-7---5-5--8-8----5/-7-7-7-7-7-7-7-7---5-5--8-8-----------------------|
G|-----------------------------------------------------------------------------------|
D|-----------------------------------------------------------------------------------|
A|-----------------------------------------------------------------------------------|
E|-----------------------------------------------------------------------------------|

One thought on “Desa Piyagath Kala

Leave a Reply