"MAGE PUNCHI ROSA MALE ( TABS INCLUDED )" SONG CHORDS

AMARASIRI PEIRIS GUITAR CHORDS

MAGE PUNCHI ROSA MALE ( TABS INCLUDED )  - 
goodcould be betterworth learningaccurateexcellent
 Chord Quality 
Loading
Auto ScrollSlowMediumFastFaster
Transpose these guitar chords into a different key:
    (play 4x times)
E|--------------------
B|--------------------
G|--------------2--2--
D|--0--0--2--2--------
A|--------------------
E|--------------------

E|--------------------
B|--------------3--3--
G|--0--0--2--2--------
D|--------------------
A|--------------------
E|--------------------

E|--------------------
B|--------------1--1--
G|--0--0--2--2--------
D|--------------------
A|--------------------
E|--------------------


E|--------------------
B|--------------------
G|--------0--0--2--2--
D|--2--2--------------
A|--------------------
E|--------------------

E|-----------------------
B|-----------------------
G|-----------------------
D|--------0--0--2--2--0--
A|--3--3-----------------
E|-----------------------

Violin Comes in..

After That Guitar Again
     (play 4x times)
E|--------------------
B|--------------------
G|--------------2--2--
D|--0--0--2--2--------
A|--------------------
E|--------------------

[Intro/Inter]
-------------------------------------
|Asus4  |-   |-   |-  |
|Dsus4  |Am  |C   |Am |
|Dm     |-   |Am  |-  |
|Asus4  |-   |-   |-  |
|Asus4  |-   |-   |-  |
 
[Chorus]
------------------------------------
Asus4 Dsus4  Asus4
Mage  punchi rosa male
Dm                        C   Cadd9
Mamai numbe wiyapath bambara..
      C            Am           Dm  Dsus4
Numba heenden wath nodakina kumara
      C      Am   C   Am       Dm
Numba heenen wath nodakina kumara

[Verse 1]
------------------------------------
Dm          Asus4/Dm
Kaluwara ra sandak wage
   Gm           Am
Ahase numba innavanam
Bb         Gm     F      Gm    F    C   C7
Aasai mama nokiyu kaviya obata kiyanna
Am          C             Asus4
Tharahak na numba basa yanna

[Verse 2]
------------------------------------
Dm          Asus4/Dm    
Mage punchi nawathane
   Gm             Am
Awidin seri saranavanam
Bb        Gm    F     Gm     F     C  C7
Asai mama kaulu piyan herala thiyanna
Am          C        Asus4
tharahak na nawith inna

Amarasiri Peiris chords are property and copyright of thier owners. "Mage Punchi Rosa Male ( Tabs Included )" chords provided for educational purposes and personal use only.

Leave a Reply