"LANDUNE ( TABS INCLUDED )" SONG CHORDS

AMARASIRI PEIRIS GUITAR CHORDS

LANDUNE ( TABS INCLUDED )  - 
goodcould be betterworth learningaccurateexcellent
 Chord Quality 
Loading
Auto ScrollSlowMediumFastFaster
Transpose these guitar chords into a different key:
[intro]
Dm C               Dm
--------------------------
--------------------------
--------------------------
--------------------------
-5-3--5s7-7h8-7h8--5------
--------------------------
Flute part
Dm       C        Dm
--------------------------
--------------------------
-2---0--------------------
---------2--0------0------
----------------3---------
--------------------------
(inter)
play this two times
--------------------------
----------5h6-5-----------
-7-7--7-7-----------------
--------------------------
--------------------------
--------------------------
then play this
--------------------------
----------5h6-5-----------
-7-7--7-7-------6---------
--------------------------
--------------------------
--------------------------
play this two times
--------------------------
----------5h6-5-----------
-6-6--6-6-----------------
--------------------------
--------------------------
--------------------------
then play this
--------------------------
----------5h6-5-----------
-6-6--6-6-------7---------
--------------------------
--------------------------
--------------------------
Dm     C      Dm
Landune landune...
          C       Dm       G        D         C         Dm
obe daasa dakagaththemi....sandaa kaleka landune...landune...
F         G        Dm      G                 Dm
Denodahak atha gaththada...samiyeku nathi landune...
Naayek naakam nokiyana...
G       D         C         Dm
veedi sarana landune...landune...
Dm  C    D      G        D
thel mal gena...dootha puraa...
         D7   G       D
muni kutiyata piyaman wana...
 Dm       C       Dm      G        D        C         Dm 
obe daasa dakagaththemi...sandaa kaleka landunee...landune...
C     Dm   C     Dm        C       Dm   C      Dm
budun daka niwan dakimay...dewrama yana paara asana...
G       D      C        Am    Bb       Dm
obada pataachaarawaki...obada kisaa goothamiyaki...
Dm        G        Dm          C       Dm
piriminge paapa kandata dosa vidina landune
adure paw karana danaa...

eliye rawana landune...
Gm       Dm  G        Dm            G       Dm
lama pamanak lowata penena laya nopenena landune..
G       C    Bb      Dm      C     Bb       Dm 
kuhubuwakuta waradak nathi...waradikaara landune...

Amarasiri Peiris chords are property and copyright of thier owners. "Landune ( Tabs included )" chords provided for educational purposes and personal use only.

Leave a Reply